0
SECTION
2
HEADER
9
$INSUNITS
70
4
9
$ACADVER
1
AC1014
9
$HANDSEED
5
FFFF
0
ENDSEC
0
SECTION
2
TABLES
0
TABLE
2
VPORT
5
8
100
AcDbSymbolTable
0
ENDTAB
0
TABLE
2
LTYPE
5
5
100
AcDbSymbolTable
0
LTYPE
5
14
100
AcDbSymbolTableRecord
100
AcDbLinetypeTableRecord
2
BYBLOCK
70
0
0
LTYPE
5
15
100
AcDbSymbolTableRecord
100
AcDbLinetypeTableRecord
2
BYLAYER
70
0
0
ENDTAB
0
TABLE
2
LAYER
5
2
100
AcDbSymbolTable
70
2
0
LAYER
5
50
100
AcDbSymbolTableRecord
100
AcDbLayerTableRecord
2
0
70
0
6
CONTINUOUS
0
ENDTAB
0
TABLE
2
STYLE
5
3
100
AcDbSymbolTable
70
1
0
STYLE
5
11
100
AcDbSymbolTableRecord
100
AcDbTextStyleTableRecord
2
STANDARD
70
0
0
ENDTAB
0
TABLE
2
VIEW
5
6
100
AcDbSymbolTable
70
0
0
ENDTAB
0
TABLE
2
UCS
5
7
100
AcDbSymbolTable
70
0
0
ENDTAB
0
TABLE
2
APPID
5
9
100
AcDbSymbolTable
70
2
0
APPID
5
12
100
AcDbSymbolTableRecord
100
AcDbRegAppTableRecord
2
ACAD
70
0
0
ENDTAB
0
TABLE
2
DIMSTYLE
5
A
100
AcDbSymbolTable
70
1
0
ENDTAB
0
TABLE
2
BLOCK_RECORD
5
1
100
AcDbSymbolTable
70
1
0
BLOCK_RECORD
5
1F
100
AcDbSymbolTableRecord
100
AcDbBlockTableRecord
2
*MODEL_SPACE
0
BLOCK_RECORD
5
1B
100
AcDbSymbolTableRecord
100
AcDbBlockTableRecord
2
*PAPER_SPACE
0
ENDTAB
0
ENDSEC
0
SECTION
2
BLOCKS
0
BLOCK
5
20
100
AcDbEntity
100
AcDbBlockBegin
2
*MODEL_SPACE
0
ENDBLK
5
21
100
AcDbEntity
100
AcDbBlockEnd
0
BLOCK
5
1C
100
AcDbEntity
100
AcDbBlockBegin
2
*PAPER_SPACE
0
ENDBLK
5
1D
100
AcDbEntity
100
AcDbBlockEnd
0
ENDSEC
0
SECTION
2
ENTITIES
0
LINE
5
100
100
AcDbEntity
8
0
100
AcDbLine
10
0
20
0
30
0
11
50.049999999999997
21
0
31
0
0
LINE
5
101
100
AcDbEntity
8
0
100
AcDbLine
10
50.049999999999997
20
0
30
0
11
50.049999999999997
21
4
31
0
0
LINE
5
102
100
AcDbEntity
8
0
100
AcDbLine
10
50.049999999999997
20
4
30
0
11
99.950000000000017
21
4
31
0
0
LINE
5
103
100
AcDbEntity
8
0
100
AcDbLine
10
99.950000000000017
20
4
30
0
11
99.950000000000017
21
0
31
0
0
LINE
5
104
100
AcDbEntity
8
0
100
AcDbLine
10
99.950000000000017
20
0
30
0
11
150
21
0
31
0
0
LINE
5
105
100
AcDbEntity
8
0
100
AcDbLine
10
150
20
150
30
0
11
99.950000000000017
21
150
31
0
0
LINE
5
106
100
AcDbEntity
8
0
100
AcDbLine
10
99.950000000000017
20
150
30
0
11
99.950000000000017
21
146
31
0
0
LINE
5
107
100
AcDbEntity
8
0
100
AcDbLine
10
99.950000000000017
20
146
30
0
11
50.050000000000011
21
146
31
0
0
LINE
5
108
100
AcDbEntity
8
0
100
AcDbLine
10
50.050000000000011
20
146
30
0
11
50.050000000000011
21
150
31
0
0
LINE
5
109
100
AcDbEntity
8
0
100
AcDbLine
10
50.050000000000011
20
150
30
0
11
0
21
150
31
0
0
CIRCLE
5
110
100
AcDbEntity
8
0
100
AcDbCircle
10
75
20
75.000000000000014
30
0
40
27.500000000000004
0
CIRCLE
5
111
100
AcDbEntity
8
0
100
AcDbCircle
10
25.024999999999999
20
25.025000000000006
30
0
40
5.4999999999999982
0
CIRCLE
5
112
100
AcDbEntity
8
0
100
AcDbCircle
10
25.024999999999999
20
124.97500000000001
30
0
40
5.4999999999999973
0
CIRCLE
5
113
100
AcDbEntity
8
0
100
AcDbCircle
10
25.024999999999999
20
50.374144582328341
30
0
40
3.7500000000000018
0
CIRCLE
5
114
100
AcDbEntity
8
0
100
AcDbCircle
10
25.024999999999999
20
100.23931908905284
30
0
40
3.75
0
CIRCLE
5
115
100
AcDbEntity
8
0
100
AcDbCircle
10
25.024999999999999
20
75.000000000000014
30
0
40
8.2500000000000071
0
CIRCLE
5
116
100
AcDbEntity
8
0
100
AcDbCircle
10
75
20
17.164311545381604
30
0
40
1.9999999999999996
0
CIRCLE
5
117
100
AcDbEntity
8
0
100
AcDbCircle
10
75
20
30.785649903256179
30
0
40
1.9999999999999973
0
CIRCLE
5
118
100
AcDbEntity
8
0
100
AcDbCircle
10
75.000000000000014
20
132.94568758731546
30
0
40
2.0000000000000022
0
CIRCLE
5
119
100
AcDbEntity
8
0
100
AcDbCircle
10
75.000000000000014
20
122.90155483934511
30
0
40
1.9999999999999996
0
CIRCLE
5
120
100
AcDbEntity
8
0
100
AcDbCircle
10
120
20
60.049999999999997
30
0
40
8.2499999999999929
0
CIRCLE
5
121
100
AcDbEntity
8
0
100
AcDbCircle
10
120
20
85.070000000000022
30
0
40
8.2500000000000018
0
LINE
5
122
100
AcDbEntity
8
0
100
AcDbLine
10
0
20
0
30
0
11
0
21
54.050000000000004
31
0
0
LINE
5
123
100
AcDbEntity
8
0
100
AcDbLine
10
0
20
54.050000000000004
30
0
11
4
21
54.050000000000004
31
0
0
LINE
5
124
100
AcDbEntity
8
0
100
AcDbLine
10
4
20
54.050000000000004
30
0
11
4
21
103.94999999999999
31
0
0
LINE
5
125
100
AcDbEntity
8
0
100
AcDbLine
10
4
20
103.94999999999999
30
0
11
0
21
103.94999999999999
31
0
0
LINE
5
126
100
AcDbEntity
8
0
100
AcDbLine
10
0
20
103.94999999999999
30
0
11
0
21
150
31
0
0
LINE
5
127
100
AcDbEntity
8
0
100
AcDbLine
10
150
20
0
30
0
11
150
21
46.049999999999997
31
0
0
LINE
5
128
100
AcDbEntity
8
0
100
AcDbLine
10
150
20
46.049999999999997
30
0
11
146
21
46.049999999999997
31
0
0
LINE
5
129
100
AcDbEntity
8
0
100
AcDbLine
10
146
20
46.049999999999997
30
0
11
146
21
95.949999999999989
31
0
0
LINE
5
130
100
AcDbEntity
8
0
100
AcDbLine
10
146
20
95.949999999999989
30
0
11
150
21
95.949999999999989
31
0
0
LINE
5
131
100
AcDbEntity
8
0
100
AcDbLine
10
150
20
95.949999999999989
30
0
11
150
21
150
31
0
0
ENDSEC
0
SECTION
2
OBJECTS
0
DICTIONARY
5
C
100
AcDbDictionary
3
ACAD_GROUP
350
D
3
ACAD_MLINESTYLE
350
17
0
DICTIONARY
5
D
100
AcDbDictionary
0
DICTIONARY
5
1A
330
C
100
AcDbDictionary
0
DICTIONARY
5
17
100
AcDbDictionary
0
ENDSEC
0
EOF
